0
SECTION
2
HEADER
9
$INSUNITS
70
4
9
$ACADVER
1
AC1014
9
$HANDSEED
5
FFFF
0
ENDSEC
0
SECTION
2
TABLES
0
TABLE
2
VPORT
5
8
100
AcDbSymbolTable
0
ENDTAB
0
TABLE
2
LTYPE
5
5
100
AcDbSymbolTable
0
LTYPE
5
14
100
AcDbSymbolTableRecord
100
AcDbLinetypeTableRecord
2
BYBLOCK
70
0
0
LTYPE
5
15
100
AcDbSymbolTableRecord
100
AcDbLinetypeTableRecord
2
BYLAYER
70
0
0
ENDTAB
0
TABLE
2
LAYER
5
2
100
AcDbSymbolTable
70
2
0
LAYER
5
50
100
AcDbSymbolTableRecord
100
AcDbLayerTableRecord
2
0
70
0
6
CONTINUOUS
0
ENDTAB
0
TABLE
2
STYLE
5
3
100
AcDbSymbolTable
70
1
0
STYLE
5
11
100
AcDbSymbolTableRecord
100
AcDbTextStyleTableRecord
2
STANDARD
70
0
0
ENDTAB
0
TABLE
2
VIEW
5
6
100
AcDbSymbolTable
70
0
0
ENDTAB
0
TABLE
2
UCS
5
7
100
AcDbSymbolTable
70
0
0
ENDTAB
0
TABLE
2
APPID
5
9
100
AcDbSymbolTable
70
2
0
APPID
5
12
100
AcDbSymbolTableRecord
100
AcDbRegAppTableRecord
2
ACAD
70
0
0
ENDTAB
0
TABLE
2
DIMSTYLE
5
A
100
AcDbSymbolTable
70
1
0
ENDTAB
0
TABLE
2
BLOCK_RECORD
5
1
100
AcDbSymbolTable
70
1
0
BLOCK_RECORD
5
1F
100
AcDbSymbolTableRecord
100
AcDbBlockTableRecord
2
*MODEL_SPACE
0
BLOCK_RECORD
5
1B
100
AcDbSymbolTableRecord
100
AcDbBlockTableRecord
2
*PAPER_SPACE
0
ENDTAB
0
ENDSEC
0
SECTION
2
BLOCKS
0
BLOCK
5
20
100
AcDbEntity
100
AcDbBlockBegin
2
*MODEL_SPACE
0
ENDBLK
5
21
100
AcDbEntity
100
AcDbBlockEnd
0
BLOCK
5
1C
100
AcDbEntity
100
AcDbBlockBegin
2
*PAPER_SPACE
0
ENDBLK
5
1D
100
AcDbEntity
100
AcDbBlockEnd
0
ENDSEC
0
SECTION
2
ENTITIES
0
LINE
5
100
100
AcDbEntity
8
0
100
AcDbLine
10
6.6599999999999993
20
12.609999999999999
30
3.0814879110195774e-32
11
6.6599999999999993
21
-4.8900000000000006
31
3.0814879110195774e-32
0
LINE
5
101
100
AcDbEntity
8
0
100
AcDbLine
10
6.6599999999999993
20
-4.8900000000000006
30
3.0814879110195774e-32
11
8.5700000000000003
21
-4.8900000000000006
31
3.0814879110195774e-32
0
LINE
5
102
100
AcDbEntity
8
0
100
AcDbLine
10
8.5700000000000003
20
-4.8900000000000006
30
3.0814879110195774e-32
11
8.5700000000000003
21
-4.25
31
0
0
LINE
5
103
100
AcDbEntity
8
0
100
AcDbLine
10
8.5700000000000003
20
-4.25
30
0
11
7.5
21
-4.25
31
0
0
LINE
5
104
100
AcDbEntity
8
0
100
AcDbLine
10
7.5
20
-4.25
30
0
11
7.5
21
-2.6400000000000001
31
0
0
LINE
5
105
100
AcDbEntity
8
0
100
AcDbLine
10
7.5
20
-2.6400000000000001
30
0
11
8.5700000000000003
21
-2.6400000000000001
31
0
0
LINE
5
106
100
AcDbEntity
8
0
100
AcDbLine
10
8.5700000000000003
20
-2.6400000000000001
30
0
11
8.5700000000000003
21
-1.9999999999999998
31
0
0
LINE
5
107
100
AcDbEntity
8
0
100
AcDbLine
10
8.5700000000000003
20
-1.9999999999999998
30
0
11
7.0399999999999991
21
-2
31
0
0
LINE
5
108
100
AcDbEntity
8
0
100
AcDbLine
10
7.0399999999999991
20
-2
30
0
11
7.0399999999999991
21
23
31
0
0
LINE
5
109
100
AcDbEntity
8
0
100
AcDbLine
10
7.0399999999999991
20
23
30
0
11
6.6599999999999993
21
23.000000000000004
31
0
0
LINE
5
110
100
AcDbEntity
8
0
100
AcDbLine
10
6.6599999999999993
20
23.000000000000004
30
0
11
6.6599999999999993
21
25.650000000000006
31
3.0814879110195774e-32
0
LINE
5
111
100
AcDbEntity
8
0
100
AcDbLine
10
6.6599999999999993
20
25.650000000000006
30
3.0814879110195774e-32
11
6.375
21
25.650000000000006
31
3.0814879110195774e-32
0
LINE
5
112
100
AcDbEntity
8
0
100
AcDbLine
10
6.375
20
25.650000000000006
30
3.0814879110195774e-32
11
6.375
21
26.800000000000004
31
0
0
LINE
5
113
100
AcDbEntity
8
0
100
AcDbLine
10
6.375
20
26.800000000000004
30
0
11
6.1213099999999994
21
26.800000000000001
31
0
0
LINE
5
114
100
AcDbEntity
8
0
100
AcDbLine
10
6.1213099999999994
20
26.800000000000001
30
0
11
6.1213099999999994
21
26.883319629826282
31
3.0814879110195774e-32
0
LINE
5
115
100
AcDbEntity
8
0
100
AcDbLine
10
6.55565
20
27.134085945746108
30
1.2325951644078309e-31
11
6.1213099999999994
21
26.883319629826282
31
3.0814879110195774e-32
0
LINE
5
116
100
AcDbEntity
8
0
100
AcDbLine
10
6.55565
20
27.134085945746108
30
1.2325951644078309e-31
11
6.55565
21
27.259664054253903
31
1.0753448711308756e-30
0
LINE
5
117
100
AcDbEntity
8
0
100
AcDbLine
10
6.1213099999999994
20
27.510430370173722
30
-1.2325951644078309e-31
11
6.55565
21
27.259664054253903
31
1.0753448711308756e-30
0
LINE
5
118
100
AcDbEntity
8
0
100
AcDbLine
10
6.1213099999999994
20
27.510430370173722
30
-1.2325951644078309e-31
11
6.1213099999999994
21
27.677069629826285
31
7.765349535769335e-30
0
LINE
5
119
100
AcDbEntity
8
0
100
AcDbLine
10
6.55565
20
27.927835945746104
30
1.2325951644078309e-31
11
6.1213099999999994
21
27.677069629826285
31
7.765349535769335e-30
0
LINE
5
120
100
AcDbEntity
8
0
100
AcDbLine
10
6.55565
20
27.927835945746104
30
1.2325951644078309e-31
11
6.55565
21
28.053414054253899
31
3.0474971341834051e-30
0
LINE
5
121
100
AcDbEntity
8
0
100
AcDbLine
10
6.1213099999999994
20
28.304180370173722
30
-1.2325951644078309e-31
11
6.55565
21
28.053414054253899
31
3.0474971341834051e-30
0
LINE
5
122
100
AcDbEntity
8
0
100
AcDbLine
10
6.1213099999999994
20
28.304180370173722
30
-1.2325951644078309e-31
11
6.1213099999999994
21
28.470819629826281
31
7.765349535769335e-30
0
LINE
5
123
100
AcDbEntity
8
0
100
AcDbLine
10
6.55565
20
28.721585945746106
30
-8.6281661508548166e-31
11
6.1213099999999994
21
28.470819629826281
31
7.765349535769335e-30
0
LINE
5
124
100
AcDbEntity
8
0
100
AcDbLine
10
6.55565
20
28.721585945746106
30
-8.6281661508548166e-31
11
6.55565
21
28.847164054253902
31
3.0814879110195774e-30
0
LINE
5
125
100
AcDbEntity
8
0
100
AcDbLine
10
6.1213099999999994
20
29.097930370173721
30
3.0814879110195774e-32
11
6.55565
21
28.847164054253902
31
3.0814879110195774e-30
0
LINE
5
126
100
AcDbEntity
8
0
100
AcDbLine
10
6.1213099999999994
20
29.097930370173721
30
3.0814879110195774e-32
11
6.1213099999999994
21
29.264569629826283
31
7.765349535769335e-30
0
LINE
5
127
100
AcDbEntity
8
0
100
AcDbLine
10
6.55565
20
29.515335945746102
30
-8.6281661508548166e-31
11
6.1213099999999994
21
29.264569629826283
31
7.765349535769335e-30
0
LINE
5
128
100
AcDbEntity
8
0
100
AcDbLine
10
6.55565
20
29.515335945746102
30
-8.6281661508548166e-31
11
6.55565
21
29.640914054253898
31
3.0474971341834051e-30
0
LINE
5
129
100
AcDbEntity
8
0
100
AcDbLine
10
6.1213099999999994
20
29.89168037017372
30
1.2325951644078309e-31
11
6.55565
21
29.640914054253898
31
3.0474971341834051e-30
0
LINE
5
130
100
AcDbEntity
8
0
100
AcDbLine
10
6.1213099999999994
20
29.89168037017372
30
1.2325951644078309e-31
11
6.1213099999999994
21
30.058319629826279
31
7.765349535769335e-30
0
LINE
5
131
100
AcDbEntity
8
0
100
AcDbLine
10
6.55565
20
30.309085945746105
30
-8.6281661508548166e-31
11
6.1213099999999994
21
30.058319629826279
31
7.765349535769335e-30
0
LINE
5
132
100
AcDbEntity
8
0
100
AcDbLine
10
6.55565
20
30.309085945746105
30
-8.6281661508548166e-31
11
6.55565
21
30.434664054253901
31
3.0474971341834051e-30
0
LINE
5
133
100
AcDbEntity
8
0
100
AcDbLine
10
6.1213099999999994
20
30.685430370173723
30
1.2325951644078309e-31
11
6.55565
21
30.434664054253901
31
3.0474971341834051e-30
0
LINE
5
134
100
AcDbEntity
8
0
100
AcDbLine
10
6.1213099999999994
20
30.685430370173723
30
1.2325951644078309e-31
11
6.1213099999999994
21
30.852069629826282
31
7.765349535769335e-30
0
LINE
5
135
100
AcDbEntity
8
0
100
AcDbLine
10
6.55565
20
31.102835945746108
30
-8.6281661508548166e-31
11
6.1213099999999994
21
30.852069629826282
31
7.765349535769335e-30
0
LINE
5
136
100
AcDbEntity
8
0
100
AcDbLine
10
6.55565
20
31.102835945746108
30
-8.6281661508548166e-31
11
6.55565
21
31.228414054253903
31
3.0474971341834051e-30
0
LINE
5
137
100
AcDbEntity
8
0
100
AcDbLine
10
6.1213099999999994
20
31.479180370173722
30
-1.2325951644078309e-31
11
6.55565
21
31.228414054253903
31
3.0474971341834051e-30
0
LINE
5
138
100
AcDbEntity
8
0
100
AcDbLine
10
6.1213099999999994
20
31.479180370173722
30
-1.2325951644078309e-31
11
6.1213099999999994
21
31.645819629826285
31
-1.2325951644078309e-31
0
LINE
5
139
100
AcDbEntity
8
0
100
AcDbLine
10
6.55565
20
31.896585945746104
30
-8.6281661508548166e-31
11
6.1213099999999994
21
31.645819629826285
31
-1.2325951644078309e-31
0
LINE
5
140
100
AcDbEntity
8
0
100
AcDbLine
10
6.55565
20
31.896585945746104
30
-8.6281661508548166e-31
11
6.55565
21
32.022164054253899
31
-3.7613034477430228e-31
0
LINE
5
141
100
AcDbEntity
8
0
100
AcDbLine
10
6.1213099999999994
20
32.272930370173725
30
-1.2325951644078309e-31
11
6.55565
21
32.022164054253899
31
-3.7613034477430228e-31
0
LINE
5
142
100
AcDbEntity
8
0
100
AcDbLine
10
6.1213099999999994
20
32.272930370173725
30
-1.2325951644078309e-31
11
6.1213099999999994
21
32.439569629826288
31
-1.2325951644078309e-31
0
LINE
5
143
100
AcDbEntity
8
0
100
AcDbLine
10
6.55565
20
32.690335945746106
30
-8.6281661508548166e-31
11
6.1213099999999994
21
32.439569629826288
31
-1.2325951644078309e-31
0
LINE
5
144
100
AcDbEntity
8
0
100
AcDbLine
10
6.55565
20
32.690335945746106
30
-8.6281661508548166e-31
11
6.55565
21
32.815914054253902
31
-4.037693261585216e-31
0
LINE
5
145
100
AcDbEntity
8
0
100
AcDbLine
10
6.3234063293868186
20
32.95000000000001
30
3.0814879110195774e-32
11
6.55565
21
32.815914054253902
31
-4.037693261585216e-31
0
LINE
5
146
100
AcDbEntity
8
0
100
AcDbLine
10
4.0499999999999972
20
-10.259999999999927
30
-1.2325951644078309e-31
11
5.2499999999999938
21
-10.259999999999927
31
-9.2444637330587321e-32
0
LINE
5
147
100
AcDbEntity
8
0
100
AcDbLine
10
5.2499999999999938
20
-10.259999999999927
30
-9.2444637330587321e-32
11
5.2499999999999938
21
-10.309999999999926
31
0
0
LINE
5
148
100
AcDbEntity
8
0
100
AcDbLine
10
5.2499999999999938
20
-10.309999999999926
30
0
11
6.5499999999999918
21
-10.309999999999926
31
-4.622231866529366e-32
0
LINE
5
149
100
AcDbEntity
8
0
100
AcDbLine
10
6.5499999999999918
20
-10.309999999999926
30
-4.622231866529366e-32
11
6.5499999999999918
21
-9.5599999999999277
31
6.1629758220391547e-32
0
LINE
5
150
100
AcDbEntity
8
0
100
AcDbLine
10
6.5499999999999918
20
-9.5599999999999277
30
6.1629758220391547e-32
11
6.0499999999999918
21
-9.5599999999999259
31
1.8103741477240017e-31
0
LINE
5
151
100
AcDbEntity
8
0
100
AcDbLine
10
6.0499999999999918
20
-9.5599999999999259
30
1.8103741477240017e-31
11
6.0499999999999936
21
-5.6899999999999356
31
-6.1629758220391547e-32
0
LINE
5
152
100
AcDbEntity
8
0
100
AcDbLine
10
6.0499999999999936
20
-5.6899999999999356
30
-6.1629758220391547e-32
11
6.5599999999999925
21
-5.6899999999999356
31
-6.1629758220391547e-32
0
LINE
5
153
100
AcDbEntity
8
0
100
AcDbLine
10
6.5599999999999925
20
-5.6899999999999356
30
-6.1629758220391547e-32
11
6.5599999999999916
21
10.610000000000035
31
6.1629758220391547e-32
0
LINE
5
154
100
AcDbEntity
8
0
100
AcDbLine
10
6.5599999999999916
20
10.610000000000035
30
6.1629758220391547e-32
11
6.374999999999992
21
10.610000000000035
31
6.1629758220391547e-32
0
LINE
5
155
100
AcDbEntity
8
0
100
AcDbLine
10
6.374999999999992
20
10.610000000000035
30
6.1629758220391547e-32
11
6.374999999999992
21
12.110000000000031
31
6.1629758220391547e-32
0
LINE
5
156
100
AcDbEntity
8
0
100
AcDbLine
10
6.374999999999992
20
12.110000000000031
30
6.1629758220391547e-32
11
4.0499999999999972
21
12.11000000000003
31
6.1629758220391547e-32
0
LINE
5
157
100
AcDbEntity
8
0
100
AcDbLine
10
4.0499999999999972
20
-7.889999999999926
30
-1.2325951644078309e-31
11
4.0499999999999972
21
12.110000000000031
31
-1.2325951644078309e-31
0
LINE
5
158
100
AcDbEntity
8
0
100
AcDbLine
10
2.6277063293868186
20
32.95000000000001
30
3.0814879110195774e-32
11
2.6249999999999996
21
-10.259999999999927
31
0
0
LWPOLYLINE
5
159
100
AcDbEntity
8
0
100
AcDbPolyline
90
4
70
1
43
0.0
10
7.1999999999999993
20
28.25
10
12.99377868843373
20
28.25
10
12.99377868843373
20
2.3674948823094555
10
7.1999999999999993
20
2.3674948823094555
0
LINE
5
160
100
AcDbEntity
8
0
100
AcDbLine
10
4.0499999999999972
20
-10.259999999999927
30
-1.2325951644078309e-31
11
2.6249999999999996
21
-10.259999999999927
31
0
0
LINE
5
161
100
AcDbEntity
8
0
100
AcDbLine
10
4.0499999999999972
20
12.110000000000031
30
-1.2325951644078309e-31
11
2.626401083769665
21
12.110089162869322
31
-1.2325951644078309e-31
0
LINE
5
162
100
AcDbEntity
8
0
100
AcDbLine
10
4.0499999999999972
20
-7.889999999999926
30
-1.2325951644078309e-31
11
2.625148443465938
21
-7.8899107586752493
31
-1.2325951644078309e-31
0
LINE
5
163
100
AcDbEntity
8
0
100
AcDbLine
10
6.3234063293868186
20
32.95000000000001
30
3.0814879110195774e-32
11
2.6277063293868186
21
32.95000000000001
31
3.0814879110195774e-32
0
LINE
5
164
100
AcDbEntity
8
0
100
AcDbLine
10
6.6599999999999993
20
23.000000000000004
30
0
11
2.6270831566534723
21
23.000252589709973
31
0
0
LINE
5
165
100
AcDbEntity
8
0
100
AcDbLine
10
6.6599999999999993
20
12.609999999999999
30
3.0814879110195774e-32
11
2.6264324100156862
21
12.61025263046754
31
3.0814879110195774e-32
0
ENDSEC
0
SECTION
2
OBJECTS
0
DICTIONARY
5
C
100
AcDbDictionary
3
ACAD_GROUP
350
D
3
ACAD_MLINESTYLE
350
17
0
DICTIONARY
5
D
100
AcDbDictionary
0
DICTIONARY
5
1A
330
C
100
AcDbDictionary
0
DICTIONARY
5
17
100
AcDbDictionary
0
ENDSEC
0
EOF
